Do As Infinity (DAI) - Yotaka No Yume Lyrics (Chord)

Artis: Do As Infinity
Title: Yotaka No Yume Lyrics

Intro: || C# Eb | Fm | C# Eb | Fm ||
e|-------8---------8---------8-11-8----8-|
B|-9-8-9-----9-8-9-----9-8-9--------11---|
G|---------------------------------------|
D|---------------------------------------|
A|---------------------------------------|
E|---------------------------------------|

C# Eb Fm
yoru no yami ni magire
C# Eb Fm
bokura teikuu de tobitsudzuketa
C# Eb Fm
tsuki wa nani mo shirazu
C# Eb Fm
hikuku ENJIN ga hibiiteta

Verso (viol√£o)
C# Eb Fm p/ baixo p/cima
e|----------------------------8-||--8-/\---|
B|----------------------------9-||--9-||---|
G|-----8--------8--------10--10-||-10-||---|
D|---6--------8-------10-----10-||-10-||---|
A|-4--------6-------8---------8-||--8-||---|
E|------------------------------\/----||---|

C# Eb Fm
soko ni donna hito ga
C# Eb Fm
kurashi waraiatte iru no deshou
C# Eb Fm
soko de donna yume ga
C# Eb Fm
umare hagukumarete ita no deshou

Bbm Fm Cm C#
chizu ni shimesareta na mo yomenai machi
Cm C# Bbm G# Bbm
kon'ya mo seigi wo mihata ni

C#
ikitoshi ikeru mono subete
G#
yakitsukusu guren no hi ga
Eb Fm
mashita ni nagareru
C#
yotei douri ni kisha agete
G#
dan'yakuko no futa tojite
Eb Fm
shouri no senkai
C# G# Eb Fm
nani mo minai nani mo kikazu
C# G# Eb Fm
nani mo nani mo nani mo nani mo

Intro

C# Eb Fm
marude iwau you ni
C# Eb Fm
hanabi sasayaka ni uchiageteru
C# Eb Fm
ikari nageki kurayami
C# Eb Fm
soshite nikushimi wo uketomeru

Bbm Fm Cm C#
asahi yori hayaku mabushii hikari ga
Cm C# Bbm G# Bbm
totsuzen GARASU wo kudaite

C#
ikitoshi ikeru mono subete
G#
onaji iro shinku no chi ga
Eb Fm
mune kara nagareru
C#
chikara naku nigiru soujuukan
G#
furimuki sakende mitemo
Eb Fm
dare mo kotae nai
C# G# Eb Fm
tsuki ga tooku kasumi kieru
C# G# Eb Fm
haha mo chichi mo tomo mo kimi mo
SOLO || Fm | G | Cm C# | G# || (2x) Eb

C#
umareta kuni ga chigau nara
G#
konna sabaku no asayake
Eb Fm
mizu ni ikite yuku
C#
akatsuki no sora ni yotaka ga
G#
hagurete mou modorenai
Eb Fm
nagareboshi ni naru

C#
ikitoshi ikeru mono subete
G#
onaji sora shinku no chi de
Eb Fm
inochi wo sodateru
C#
donna seigi wo kazashitemo
G#
nagaredesu shinku no chi wo
Eb Fm
tomerare wa shinai
C# G# Eb Fm
yume wo miteta nagai yume wo
C# G# Eb Fm
nagai yume wo nagai yume wo

Intro

Posting Terkait



Tidak ada komentar:

Posting Komentar