Lifehouse - Take Me Away (Acoustic) Lyrics (Chord)

Artist : Lifehouse
Judul : Take Me Away (Acoustic) Lyrics (Chord)

Chords:
E A5 C#m7 C#m7(2) Bsus4 Bsus4(2) Ab5 B5 C#5

E|----0----0------0----0--------0-------0-------x----x-----x--
B|----0----0------0----0--------0-------0-------x----x-----x--
G|----1----2------6----6--------4-------4-------x----4-----6--
D|----2----2------6----6--------4-------4-------6----4-----6--
A|----2----0------4----4--------2-------2-------6----2-----4--
E|----0----0------x----4--------x-------2-------4----2-----4--


Rhy.Fig.1
E A5 C#m7 A5
E|---------0------------0----0--------------0----0------------0----0------------|
B|-----------0----------0------0------0-----0------0-----0----0------0----------|
G|------1--------1------2--------2----------6--------6--------2----------1------|
D|----2--------2---2----2-------------------6----------6------2--------2---2----|
A|--2-------------------0------------0------4-----------------0—----------------|
E|----------------------x-------------------x-----------------x-----------------|


Rhy.Fig.2
E Bsus4 C#m7 A5
E|---------0--------------------0-------------------0------------------0---------------|
B|-----------0--------------------0-------------------0------------------0-------------|
G|------1--------1----------4-------4------------6------6-----------2------2-----------|
D|----2--------2---2------4-----------4--------6----------6-------2----------2---------|
A|--2-------------------2---------------2----4--------------4---0------—-------0-------|
E|-------------------------------------------------------------------------------------|
Strum
With: E Bsus4(2) C#m7(2) A5



Verse 1: W/Rhy.Fig.1 (x4)
E A5 C#m7
This time all I want is you
A5 E
There is no one else
A5 C#m7 A5
Who can take your place………
E A5 C#m7
This time you burned me with your eyes
A5 E
You see past all the lies
A5 C#m7 A5
You take it all away…………

Pre Chorus:
Bsus4
I’ve seen it all and it’s never enough
C#m7 A5
It keeps leaving me needing you

E B5 C#m7(2) A5
Take me away Take me away
E B5
I’ve got nothing left to say
C#m7(2) A5
Just take me away
C#m7 A5 C#7 A5

Verse 2:W/Rhy.Fig.1(x2)
E A5 C#m7
I try to make my way to you
A5 E
But still I feel so lost
A5 C#m7 A5
I don’t know what else I can do


Pre chorus:

Bsus4
I’ve seen it all and it’s never enough
C#m7 A5
It keeps leaving me needing you


Chorus:

E Bsus4(2) C#m7(2) A5
Take me away Take me away
E Bsus4(2)
I’ve got nothing left to say
C#m7(2)
Just take me away
C#m7 A5 C#7 A5

Bridge:

Ab5 B5
Don’t give up on me yet
C#5 B5
Don’t forget who I am
Ab5 B5
I know I’m not there yet
C#5 B5
But don’t let me stay here alone

E Bsus4 C#m7 A5

Verse 3:W/Rhy.fig.1 (x2)

E A5 C#m7
This time all I want is you
A5 E
There is no one else
A5 C#m7 A5
Who can take your place………

Pre chorus:

Bsus4
I’ve seen it all and it’s never enough
C#m7 A5
It keeps leaving me needing you

Chorus:

E Bsus4(2) C#m7(2) A5
Take me away Take me away
E Bsus4(2)
I’ve got nothing left to say
C#m7(2)
Just take me away

Bsus4(2) A5 E

Posting Terkait



1 komentar:

  1. Pengen yang lebih seru ...
    Ayo kunjungi www.asianbet77.com
    Buktikan sendiri ..

    Real Play = Real Money

    - Bonus Promo Red Card pertandingan manapun .
    - Bonus Mixparlay .
    - Bonus Tangkasnet setiap hari .
    - New Produk Sabung Ayam ( minimal bet sangat ringan ) .
    - Referal 5 + 1 % ( seumur hidup ) .
    - Cash Back up to 10 % .
    - Bonus Royalty Rewards setiap bulan .

    untuk Informasi lebih jelasnya silahkan hubungi CS kami :
    - YM : op1_asianbet77@yahoo.com
    - EMAIL : asianbet77@yahoo.com
    - WHATSAPP : +63 905 213 7234
    - WECHAT : asianbet_77
    - SMS CENTER : +63 905 209 8162
    - PIN BB : 2B4BB06A / 28339A41

    Salam Admin ,
    http://asianbet77.com/

    BalasHapus